CIFRA

Introdução:

e -------------------------------------------------
B -------------------------------------------------
G -6-6-6-13-13-11-11-11-11-11-13-13\9-9------------
D -x-x-x--x--x--x--x--x--x--x--x--x-x-x------------
A -4-4-4-11-11--9--9--9--9--9-11-11\7-7------------
E -------------------------------------------------

(Acordes Opcionais)
Db5                                          E5
I am a little bit of loneliness, a little bit of disregard
A5
Handful of complaints but I can’t help the fact
B5
That everyone can see these scars
Db5                                               E5
I am what I want you to want, what I want you to feel
A5
But it’s like no matter what I do, I can’t convince you
B5
To just believe this is real
Db5                                   E5
So I, let go watching you turn your back like you always do
A5
Face away and pretend I’m not
B5
But I’ll be here ‘cause you’re all that I’ve got

Refrão:

e -------------------------------------------------
B -------------------------------------------------
G -6-6-6-13-13-11-11-11-11-11-13-13\9-9------------
D -x-x-x--x--x--x--x--x--x--x--x--x-x-x------------
A -4-4-4-11-11--9--9--9--9--9-11-11\7-7------------
D -------------------------------------------------

Db5           E5
I can’t feel the way I did before
A5
Don’t turn your back on me
B5
I won’t be ignored
Db5                     E5
Time won’t heal this damage anymore
A5                                           B5
Don’t turn your back on me I won’t be ignored

 

Db5                                       E5
I am, a little bit insecure, a little unconfident
A5
‘Cause you don’t understand I do what I can
B5
But sometimes I don’t make sense
Db5                                                     E5
I am, what you never want to say, but I’ve never had a doubt
A5                                                                                 B5
It’s like no matter what I do I can’t convince you for once just to hear me out
Db5                                    E5
So I, let go watching you turn your back like you always do
A5
You face away and pretend I’m not
B5
But I’ll be here ‘cause you’re all that I’ve got (got, got got, got)

Refrão:

e -------------------------------------------------
B -------------------------------------------------
G -6-6-6-13-13-11-11-11-11-11-13-13\9-9------------
D -x-x-x--x--x--x--x--x--x--x--x--x-x-x------------
A -4-4-4-11-11--9--9--9--9--9-11-11\7-7------------
D -------------------------------------------------

Db5           E5
I can’t feel the way I did before
A5
Don’t turn your back on me
B5
I won’t be ignored
Db5                     E5
Time won’t heal this damage anymore
A5                                           B5
Don’t turn your back on me I won’t be ignored

You hear me out now
You’re gonna listen to me like it or not
Right now, hear me out now
You’re gonna listen to me like it or not
Right now

I can’t feel the way I did before
Don’t turn your back on me
I won’t be ignored
Time won’t heal this damage anymore
Don’t turn your back on me I won’t be ignored

Refrão:

e|-------------------------------------------------|
B|-------------------------------------------------|
G|-6-6-6-13-13-11-11-11-11-11-13-13\9-9------------|
D|-x-x-x--x--x--x--x--x--x--x--x--x-x-x------------|
A|-4-4-4-11-11--9--9--9--9--9-11-11\7-7------------|
D|-------------------------------------------------|

Db5           E5
I can’t feel the way I did before
A5
Don’t turn your back on me
B5
I won’t be ignored
Db5                     E5
Time won’t heal this damage anymore
A5                                           B5
Don’t turn your back on me I won’t be ignored

Adicionado por

Rui Alves

PARTILHAR

O seu endereço de email não será publicado. Campos obrigatórios marcados com *

PUBLICIDADE

VIDEO