Intro

e |-----------------------------------
B |--8---8----8---8---8---8---8---8---
G |---10--10---9---9---8---8---7---7--
D |-----8---8---8---8---8---8---8---8-
A |-----------------------------------
E |-----------------------------------

D#                             Dm                               Cm       F
Trago manuais p’ra tudo menos pró que der e vier
Dm               Gm             Cm                  F
Chego precavida com o dom de esquecer
D#                             Edim        Dm              C7
Cumpro o que é devido com exceção do dever

e |-----------------------------------
B |--8---8----8---8---8---8---8---8---
G |---10--10---9---9---8---8---7---7--
D |-----8---8---8---8---8---8---8---8-
A |-----------------------------------
E |-----------------------------------

Viver
Eu só vim cá ver
Viver…

D#                                      Cm                              Cm             F
Ando a toda a brida enquanto a vida me der pés p’ra torcer
Dm                         Gm           Cm          F
Trouxe a casa às costas e o peito a fugir
D#                       Edim               Dm           C7
Sei o que me espera, só me escapa o porvir

e |-----------------------------------
B |--8---8----8---8---8---8---8---8---
G |---10--10---9---9---8---8---7---7--
D |-----8---8---8---8---8---8---8---8-
A |-----------------------------------
E |-----------------------------------

Viver
Eu só vim cá ver
Viver…
Viver…
Viver…
Viver…

Gm                            C
Arco a culpa, fujo à falta
                       D#                               Bb
Durmo na revolta, mas resisto em pé
Gm                                   C
Parto pratos, varro os cacos
                                   D#                        Bb
Armo as mãos p’ra socos e p’ra cafuné
Gm                            C
Faço atalhos e cadilhos
                                  D#                                   Bb
Lá me prendo aos trilhos que eu correr de cor
Gm                                      C
Esqueço o luto e vou de branco
                          D#                        Bb
Só me dão desconto se eu fizer pior

Gm                              C
Toco à campainha errada
                            D#                           Bb
Sempre à hora certa p’ra interruptores
Gm                                 C
Sei ser ruiva e sei ter raiva
                        D#                                     Bb
Cor de fogo aviva quem morrer de amores

Gm                              C
Fujo à briga e vou à luta
                      D#                        Bb
Dedos na batuta, egos por reger
Gm                                 C
Trago a abundância à justa
D#                                                    Edim C#dim
Que nem sempre custa isso de viver…

Edim C#dim
Edim C#dim

D#                       Dm                                  Cm             F
Já sei o sentido disto tudo: quem mais diz é quem é
Dm                        Gm             Cm          F   
Queimo a estaca zero, eu recuso o sopé
         D#                Edim              Dm         C7
Vou rumo ao mistério, vivo em saltos de fé

e |-----------------------------------
B |--8---8----8---8---8---8---8---8---
G |---10--10---9---9---8---8---7---7--
D |-----8---8---8---8---8---8---8---8-
A |-----------------------------------
E |-----------------------------------

Pois é
Pois é

Adicionado por

Rui Alves

PARTILHAR

O seu endereço de email não será publicado. Campos obrigatórios marcados com *

PUBLICIDADE

VIDEO